One day reckoning song

Chords according to capo

Capo 6

Am   0-0-2-2-1-0
C    X-3-2-0-1-0
G    3-2-0-0-0-3
F    1-3-3-2-1-1 / 0-0-3-2-1-1



Intro

e|-----------------------------------------------------------------|
B|-----------------------------------------------------------------|
G|-----------------2-----------------------------------------------|
D|-----------------0h2---------------------------------------------|
A|---0-------------------------------------------------------------|
E|-----------------------------------------------------------------|

e|-------0-------0-------0-------0-------1-------1-------0-------0-|
B|-----1-------1-------1-------1-------1-------1-------1-------1---|
G|---2-------2-------2-------2-------2-------2-------2-------2-----|
D|---------2-------2-------2-------3-------3-------2-------0-------|
A|-0---------------------------------------------------------------|
E|-----------------------------------------------------------------|

e|-------0-------0-------0-------0-------0-------0-------0-------0-|
B|-----1-------1-------1-------1-------1-------1-------1-------1---|
G|---0-------0-------0-------0-------0-------0-------0-------0-----|
D|---------2-------2-------2p0-------------0-------0---------------|
A|-3-------------------------------2-----------------------2-------|
E|-----------------------------------------------------------------|

e|-------0-------0-------0-------0-------1-------1-------0-------0-|
B|-----1-------1-------1-------1-------1-------1-------1-------1---|
G|---2-------2-------2-------2-------2-------2-------2-------2-----|
D|---------2-------2-------2-------3-------3-------2-------0-------|
A|-0---------------------------------------------------------------|
E|-----------------------------------------------------------------|

e|-------0-------0-------0-------0-------0-------0-------0-------0-|
B|-----1-------1-------1-------1-------1-------1-------1-------1---|
G|---0-------0-------0-------0-------0-------0-------0-------0-----|
D|---------2p0-------------0---------------0---------------0-------|
A|-3---------------2---------------3---------------2---------------|
E|-----------------------------------------------------------------|

e|-------0---------------------------------------------------------|
B|-----1-----------------------------------------------------------|
G|---2-------------------------------------------------------------|
D|-----------------------------------------------------------------|
A|-0---------------------------------------------------------------|
E|-----------------------------------------------------------------|


Verse

 Am               C                G                F
e ----------------|----------------|----------------|----------------|
b --1---1---1---1-|--1---1---1---1-|--0---0---0---0-|--1---1---1-----|
g --2---2---2---2-|--0---0---0---0-|--0---0---0---0-|--2---2---2---0-|
D ----2-------2---|----2-------2---|----0-------0---|----3-------3---|
A 0-------0-------|3-------3-------|----------------|----------------|
E ----------------|----------------|3-------3-------|1--------1------|


 Am
No more tears, my heart is dry

 C
I don't laugh and I don't cry

 G
I don't think about you all the time

 F
But when I do – I wonder why



 Am
You have to go out of my door

 C
And leave just like you did before

 G
I know I said that I was sure

 F
But rich men can't imagine poor.



 Am                     C
One day baby, we'll be old
                   G
Oh baby, we'll be old
                              F
And think of all the stories that we could have told



 Am
Little me and little you

 C
Kept doing all the things they do

 G
They never really think it through

 F
Like I can never think you're true



 Am
Here I go again – the blame

 C
The guilt, the pain, the hurt, the shame

 G
The founding fathers of our plane

 F
That's stuck in heavy clouds of rain.



 Am                     C
One day baby, we'll be old
                   G
Oh baby, we'll be old
                              F
And think of all the stories that we could have told......

bron: tabsrus.nl

Akkoorden

Am
C
G
F

Taal: Engels


remove advertisements


remove advertisements