God Called In Sick Today

4/4

A#5 : 688xxx of x133xx
C5  : x355xx of 8.10.10.x.x.x
G5  : 355xxx
F5  : 133xxx
D#5 : x688xx
D5  : x577xx of 10.12.12.x.x.x
A5  : x022xx of 577xxx
E#5 : x.8.10.10.x.x
~~  : door laten klinken

Intro:
e|------------------------------------------------------------------------|
b|------------------------------------------------------------------------|
g|-----3-----3-----------2-----2------------2-----2----------3-----3------|
d|-5-5---5-5---5-5---3-3---3-3---3-3----0-0---0-0---0-0---1-1--1-1---1-0--|
a|------------------------------------------------------------------------|
E|------------------------------------------------------------------------|

e|------------------------------------------------------------------------|
b|--------6---------------------------------------------------------------|
g|-----3-----3-----------2-----2-----------2-3-2-------------3-------2----|
d|-5-5---5-----5-5---3-3---3-3---3-3---0-3------3-0-0----1-1---0-3-3---3--|
a|------------------------------------------------------------------------|
E|------------------------------------------------------------------------|

Let's admire the pattern forming.
Murderous filigree.
I'm caught in the twisting of the vine.
 D5             C5
Go ascend with ivy, climbing.
 A5         Bb5
Ignore and leave for me
 D5            C5          D5   D#5
the headstone crumbling behind.

A#5             C5              G5     E#5
I can't help my laughter as she cries.
 Bb5            C5    G5         D#5
My soul brings tears to angelic eyes.

Let's amend the classic story, close it so beautifully,
I'll let animosity unwind.
Steal away the darkened pages, hidden so shamefully.
I'll still feel the violence of the lines.

I can't stand my laughter as they cry.
My soul brings tears to angelic eyes.
And miles away my mother cries.
Omnipotence, nurturing malevolence.

     D5                   C5               A5              Bb5
e|---------------------------------------------------------------------|
b|---------------------------------------------------------------------|
g|---------------------------------------------------------------------|
d|--12--12-12-12--12-12--10-10--10--10-10--7--7-7-7--7-7--8-8--8--8-8--|
a|--12--12-12-12--12-12--10-10--10--10-10--7--7-7-7--7-7--8-8--8--8-8--|
E|--10--10-10-10--10-10---8--8---8---8--8--5--5-5-5--5-5--6-6--6--6-6--|
(4 x)

     G5  F5     Bb5 F5    G5  F5     D#5
e|--------------------------------------------------|
b|--------------------------------------------------|
g|--------------------------------------------------|
d|--5---3-3-3--8---3-3-3--5--3-3-3--8-8-8-8-8-8-8---|
a|--5---3-3-3--8---3-3-3--5--3-3-3--8-8-8-8-8-8-8---|
E|--3---1-1-1--6---1-1-1--3--1-1-1--6-6-6-6-6-6-6---|

I can't stand my laughter as they cry.
My soul brings tears to angelic eyes.
And miles away my mother cries.
Omnipotence, nurturing malevolence.


Outro:

     Bb5  F5    G5
e|--------------------|
B|--------------------|
G|--------------------|
D|--8~~--3-3-3--5~~---|
A|--8~~--3-3-3--5~~---|
E|--6~~--1-1-1--3~~---|

Als er boven een stukje geen akkoorden staan gaat het hetzelfde als een
stukje daarvoor.
Heb je nog vragen, mail me dan ff: fabianpruissen@hotmail.com
Veel Plezier!!!

bron: tabsrus.nl

Akkoorden

D5
C5
A5
Bb5
D#5
G5
F5

Taal: Engels


remove advertisements


remove advertisements