Fractal Point

				Tuning = E (E,A,D,G,B,E)

 Section A
|--------------------------------|
|--------------------------------|
|----------------------------*---|GTR I
|-5~--/9~--4~-------------/5-4---|
|--------------7~-5~--3~-------5-|
|--------------------------------|
 * - last time end on this note


 Section B - swell all notes louder  
|-12~--14~--15~--17~--19~--20~--22~-|
|-----------------------------------|
|-----------------------------------|GTR II
|-----------------------------------|
|-----------------------------------|
|-----------------------------------|

 continuation of Section B - swell all notes louder
|-----15-14-------------------------12~--14~--15~--17~-|
|-12~--------12-15~--12~-------------------------------|
|-------------------------12~--------------------------|GTR II
|------------------------------14~---------------------|
|------------------------------------------------------|
|------------------------------------------------------|

Play Section A throughout song
Play Section B over Section A
END.

				

source: tabsrus.nl

Language: english


remove advertisements


remove advertisements