Lullaby

Lullaby
~~~~~~~
By: Andrew York
Transcribed from: "Portrait" by Kavi
Transcribed and tabbed by: John Kean

Drop-D tuning.

4/4 time.
MM = 50 (slow).


, . , . , . , .   , . , . , . , .    ,     . , . , . , .
||-------------5---|-------------5---||-5h7-5---------------|
||-3---3---5-------|-3---3---5-------||-------------------7-|
||---0---0---0-----|---0---0---0-----||-----------0---0-----|
||-4---4---5-------|-4---4---5-------||---------4---7---4---|
||-0-------0-------|-0-------0-------||-------0-------------|
||-----------------|-----------------||-0-------------------|


, . , . , . , .   , . , . , . ,     .   , . , . , . , .
|-----------------|-0---------3-2h3p2-0-|---------------5-|
|-6-------------6-|-------3-2---2-------|-7---------0-----|
|-------0---0-----|-----4---0---0-------|-------0-----6---|
|-----3---7---3---|---5-----------------|-----4---7-------|
|---0-------------|-0-------0-----------|---0-------------|
|-0---------------|---------------------|-0---------------|


,     . , .  ,  . , .   , . , . ,  . , .   , . , . , . , .
|-5h7-5----------10-9-5-|-6---------10-8-3-|-5-------5-----3-|
|-----------------------|---5---5-3--------|---6---6-3-0-2---|
|-----------0-----------|-7---7---3--------|-5---5---4---0---|
|---------4-------------|------------------|-3---------------|
|-------0-----H12-------|---------3--------|---------0-------|
|-0---------------------|-5----------------|-----------------|


, . , .  , . , .    , . , . , . , .   , . , . , . , .
|------------------||---0-1-3-5-------|-5---5-6-5---5-3-|
|-7----------------||-3---------5-----|---6-------5-----|
|-------0----0-----||-----2---6---6---|-7---6---5---4---|
|-----4--------4---||-3-------7-----7-|-----------------|
|---0-----H12----0-||---------0-------|-0---0---0---0---|
|-0----------------||-0---------------|-----------------|


, . , . , . , .   , . , . , . , .   , . , . , . , .
|---0-1-3---------|---0-2-3-5-------|-5---5-6-5---5-3-|
|-3-------2-------|-3---------5-----|---7-------5-----|
|-3-------2-------|-----2---6---6---|-7---6---5---4---|
|-----------2-8-7-|-4-------7-----7-|-----------------|
|-0-------0-------|---------0-------|-0---0---0---0---|
|-----------------|-0---------------|-----------------|


, . , . , . , .    , . , . , . , .   , . , . , . , .
|---0-1-3-5-------||-------------5---|-------------5---||
|-3---------2-----||-3---3---5-------|-3---3---5-------||
|-3-------2---2-0-||---0---0---0-----|---0---0---0-----||
|-----------------||-4---4---5-------|-4---4---5-------||
|-0-------0-------||-----------------|-0---------------||
|-----------------||-0---------------|-----------------||


,     .  ,  .  ,  .  ,  .   , . ,  .  ,  .  , .
||---------------------------|---------------------|
||----------7----10-----7----|-----6----10-----6---|
||------------H12---H12------|-------H12---H12-----|
||-7h9-7-------------------4-|-3-----------------3-|
||-------0-------------------|---0-----------------|
||-0-------------------------|-0-------------------|


, . , . , . ,     .    ,  .  ,  .  ,  .  ,  .
|---------0-----------|-----------0--2--3--5-----|
|-----0-3-2-----------|--------3-----3-----------|
|---0-----0-----------|-----------2--------6-----|
|-2---------5-4h5p4-2-|--4--------------------7--|
|-0-------0-----------|-----0--------------------|
|---------------------|--0-----------------------|


,     . ,  .  , . , .   , . , . , . , .   , . , . , . , .
|-----------------------|---0---------0---|-----1-----0-----|
|---------7-------------|-----3-----3-----|---1---1---0-----|
|-----------H12---7-6-2-|-3-----------5-0-|-2---------7-6---|
|-7h9-7--------H7-------|-0-----5---------|---------7-----5-|
|-------0---------------|---------3-------|---------0-------|
|-0---------------------|-5---------------|-3---------------|


, . , . , . , .    , . , . , . , .   , . , . , . , .
|-----------2-----||---0-1-3-5-------|-5---5-6-5---5-3-|
|---------3---3---||-3---------5-----|---6-------5-----|
|-------2-------2-||-----2---6---6---|-7---6---5---4---|
|-4---------------||-3-------7-----7-|-----------------|
|---0-5-----------||---------0-------|-0---0---0---0---|
|-0---------------||-0---------------|-----------------|


, . , . , . , .   , . , . , . , .   , . , . , . , .
|---0-1-3---------|---0-2-3-5-------|-5---5-6-5---5-3-|
|-3-------2-------|-3---------5-----|---7-------5-----|
|-3-------2-------|-----2---6---6---|-7---6---5---4---|
|-----------2-8-7-|-4-------7-----7-|-----------------|
|-0-------0-------|---------0-------|-0---0---0---0---|
|-----------------|-0---------------|-----------------|


, . , . , . , .    , . , . , . , .   , . , . , . , .
|---0-1-3-5-------||-------------5---|-------------5---|
|-3---------2-----||-3---3---5-------|-3---3---5-------|
|-3-------2---2-0-||---0---0---0-----|---0---0---0-----|
|-----------------||-4---4---5-------|-4---4---5-------|
|-0-------0-------||-----------------|-0---------------|
|-----------------||-0---------------|-----------------|


, . , . , . , .   , . , .  , . , .   , .  , . , .     ,  .
|-----------------|------------------|-2--3-2---2-3p2p0-2----|
|-3---3---3---2---|-3----------0-2-3-|-2------5-0------------|
|---0---0---0---0-|-2-----0----------|-2--4-2---0------------|
|-3---3---2---2---|-4---4------------|--------------------H7-|
|-0-------0-------|---0-----H12------|-0--------0------------|
|-----------------|-0----------------|-----------------------|


, .  , . , .     , .   , . , . , . , .   , . , . , . , .
|-2--3-2---2-3p2p0-2-5-|-5---------------|-5---------------|
|-2------5-0-------2-2-|-3---------3-2---|-3---------3-2---|
|-2--4-2---0-------0-0-|---0---2-4---2---|---0---2-4---2---|
|----------------------|-4---4---5-------|-4---4---5-------|
|-0--------0---------0-|---------0-----0-|---------0-----0-|
|----------------------|-0---------------|-0---------------|


, . , . , . , .
|-5---------------||
|-3---------------||
|-----------------|| Fine.
|-4---------------|| 3'48"
|-----------------||
|-0---------------||






source: tabsrus.nl

musicbrainz_work_id: 94eb2aee-32a4-3c5f-a126-eb5c7ab06a2f
Language: norwegian
Mood: Earnest; Stylish; Intimate; Reflective; Amiable/Good-Natured; Earthy; Plaintive; Restrained; Dreamy; Soothing; Laid-Back/Mellow; Calm/Peaceful; Atmospheric
Theme: Introspection; Reflection; Sunday Afternoon; Rainy Day; Long Walk
Style: Contemporary Folk; Contemporary Instrumental; Solo Instrumental