Leipe Mocro Flavour

Opmerking:
I. Dit liedje is een update van de song die is weggehaald onder deze naam.
Ik heb de akkoorden erbij gezet, deze klinken net als de bass erg raar, maar ze kloppen wel.
II. Er zijn meerdere versies van het lied, dus zorg dat je de goeie versie hebt
anders kan dit voor verwarring zorgen. (Yes-R, Ali B + Brace)

Akkoordschema:
Dm5    : x57775
Dm5sus2: x57755
A#5    : 688766
A5     : 577655

Riff1 + Intro:
Dm5   Dm5sus2  A#5   A5
E|----5----------6-3----------|
B|--3---6-5653-------1-434-3--|
G|----------------------------|
D|----------------------------|
A|----------------------------|
E|----------------------------|


Riff 2: (variatie)
Dm5   Dm5sus2  A#5   A5
E|--3------------5------------|
B|------1---343----3-1-434-3--|
G|----------------------------|
D|----------------------------|
A|----------------------------|
E|----------------------------|

Bass:
Dm5   Dm5sus2  A#5   A5
E|----------------------------|
B|----------------------------|
G|----------------------------|
D|----------------------------|
A|-----0----------1-----------|
D|--0-----3--2-------1--6--0--|

Couplet 1 – Ali B (Riff 1 – Riff 2 + Bass):
Dm5   Dm5sus2  A#5   A5
E|----------------------------|
B|----------------------------|
G|----------------------------|
D|----------------------------|
A|-----0----------1-----------|
D|--0-----3--2-------1--6--0--|
Je hoort Ali B, hardcore to the bone,
Represent War Child tot aan stichting Boom.
Dm5   Dm5sus2  A#5   A5
E|----------------------------|
B|----------------------------|
G|----------------------------|
D|----------------------------|
A|-----0----------1-----------|
D|--0-----3--2-------1--6--0--|
In mijn leven is niks gewoon,
kontelikkers likken me bil zo schoon.
Dm5   Dm5sus2  A#5   A5
E|----------------------------|
B|----------------------------|
G|----------------------------|
D|----------------------------|
A|-----0----------1-----------|
D|--0-----3--2-------1--6--0--|
Ben niet de rapper met de sponkste flow,
maar ik heb wel een wassenbeeld in Madam Tussaud.
Dm5   Dm5sus2  A#5   A5
E|----------------------------|
B|----------------------------|
G|----------------------------|
D|----------------------------|
A|-----0----------1-----------|
D|--0-----3--2-------1--6--0--|
Sommige rappers vinden mij nu een sell-out,
een commerciele jongen die alleen maar van geld houd.
Dm5   Dm5sus2  A#5   A5
E|----------------------------|
B|----------------------------|
G|----------------------------|
D|----------------------------|
A|-----0----------1-----------|
D|--0-----3--2-------1--6--0--|
Arme stakkers doet pijn in hun hard,
want die knuffelmarokaan sleept weer een prijs in de wacht.
Dm5   Dm5sus2  A#5   A5
E|----------------------------|
B|----------------------------|
G|----------------------------|
D|----------------------------|
A|-----0----------1-----------|
D|--0-----3--2-------1--6--0--|
Ik ben niet de allerbeste, maar ik blijf wel apart.
Heb het onder controle. Alsof ik rijd in me car.
Dm5   Dm5sus2  A#5   A5
E|----------------------------|
B|----------------------------|
G|----------------------------|
D|----------------------------|
A|-----0----------1-----------|
D|--0-----3--2-------1--6--0--|
Schumacher stijl, alleen rij ik zonder te remmen.
Ik ben zo leip, hoor in me hoofd nu wel honderde stemmen.
Dm5   Dm5sus2  A#5   A5  ---
E|----------------------------|
B|----------------------------|
G|----------------------------|
D|----------------------------|
A|-----0----------1-----------|
D|--0-----3--2-------1--6--0--|
Doe dit voor een softies en hun roffe publiek.
Dus gooi je handen in de lucht en gaan we los op de beat.

Refrein(Brace):
Dm5  Dm5sus2 A#5  A5
Hoor dit is, ja dit is die Leipe Mocro Flavour
Dm5  Dm5sus2 A#5  A5
Geen probleem Ali B, brengt Leipe Mocro Flavour
Dm5  Dm5sus2 A#5  A5
Iedereen die doet mee, met Leipe Mocro Flavour
Dm5  Dm5sus2 A#5  A5
Die Leipe Mocro Flavour, die Leipe Mocro Flavour

Couplet 2 - Yes-R (Riff 1 – Riff 2 + Bass):
Ik ben als coca-cola met een cherry smaak
en ik hoef geen alcohol om herrie te maken.
Ik flow om te blazen en laat de hele club bouncen.
Chickies die dansen, want ik chill hem V.I.P.
Ik doe dat niet om stoer te doen, maar eh yo dansen kan ik niet.
Voel je die beat? Ik voel hem echt.
Tenmiste dat is als ik flow, want als ik dans lijk ik gek.
En als ik sjans, hou maar op.
Dan krijg ik 9 van de 10 keer een stomp op me bek, shit.
Kont in de tent, eh yo Ali B, Yes-R en Brace op de track.
En dit feest is perfect. En de sfeer is er zeker.
Wie brengt hem beter dan de morco flavour?
Niemand die het durft om motherfuckers weten.
Niemand die kan tippen aan Yes-R en zijn neven.
Het zit in onze bloed en dit is hoe het moet.
Je kan me haten om de vloes, maar onthou me fuckin' me naam.
En de successen die ik boek, want...

Refrein(Brace):
Dm5  Dm5sus2 A#5  A5
Hoor dit is, ja dit is die Leipe Mocro Flavour
Dm5  Dm5sus2 A#5  A5
Geen probleem Ali B, brengt Leipe Mocro Flavour
Dm5  Dm5sus2 A#5  A5
Iedereen die doet mee, met Leipe Mocro Flavour
Dm5  Dm5sus2 A#5  A5

Couplet 3 - Ali B (Riff 1 – Riff 2 + Bass):
Ik ben down met een boer of een swingende belg.
En ik heb respect voor iedereen, wat ik voor niemand verberg.
Ben eigenwijs, eigenzinnig en teminste mezelf.
Want meelopen heeft nooit en te nimmer gewerkt.
Doe maar gek...
Bounce en wordt helemaal lijp
En yo we leven al zo lang in een vervelende tijd.
En als we blijven zeuren wordt het toch al niet beter.
Dus daarom breng ik jullie nu die leipe morco flavour.
Ik geef geen fok om die fakers.
Het zijn wel honderde haters.
Ik ga de oorlog met ze aan, maar dan zonder een leger.
Yes-R aan me zijde, klaar om te strijden.
Rocken de show, pakken de dough en gaan pleite.
Ik ben het type die ze zaken wel goed bekijkt,
heb ik het te druk kun je terecht bij me look-a-like.
En als je niet genoeg krijg, volg me click.
Want yo ik ben al onderweg naar me volgende hit.

Refrein(Brace):
Dm5  Dm5sus2 A#5  A5
Hoor dit is, ja dit is die Leipe Mocro Flavour
Dm5  Dm5sus2 A#5  A5
Geen probleem Ali B, brengt Leipe Mocro Flavour
Dm5  Dm5sus2 A#5  A5
Iedereen die doet mee, met Leipe Mocro Flavour
Dm5  Dm5sus2 A#5  A5

Marcel©
=============
Sunday, 22 May 2005

source: tabsrus.nl

Language: dutch


remove advertisements


remove advertisements