Une Belle Histoire - Een Mooi Verhaal

(NB: Bij Symphonica in Rosso 2007 wordt het gespeeld met Capo op 2)






F#m = Fis Mineur = -2-4-4-2-2-2-
Bm7 = B mineur Zeven = -X-2-4-2-3-2-
E = E = -0-7-6-4-5-4-
Amaj7 = A Majeur Zeven = -X-X-7-6-5-4-
Dmaj7 =  D Majeur Zeven = -X-5-7-6-7-5-
D#o = Dis Dim = -5-6-7-5-7-5-
C#7sus4 = Cis Zeven, Sus vier = -X-4-6-4-7-4-
C#7 = Cis Zeven = -X-4-6-4-6-4-
C#m = Cis Mineur = -X-4-6-6-5-4-
F# = Fis = -2-4-4-3-2-2-

---  - Fade out
---| - Strum and palm mute

h    - hammer on
/    - slide up
    - slide down

Maat: 4/4



Alderliefste en Paul de Leeuw - Une Belle Histoire - Een Mooi Verhaal





Intro: F#m Bm7 | F#m Bm7 | F#m Bm7 | C#7sus4 |

“F#m”   “Bm7”“E”    “Amaj7”   “Dmaj7” “D#o”    “C#7sus4”“C#7”
e|------------------------7-------7-------------------------------------------|
B|---7-9-9/10-10-9-7--------10-9----10-9---7-9-9/10---7----------6h7-6--------|
G|-6----------------------------------------------------6---------------------|
D|--------------------------------------------------------9-------------9-9-7-|
A|----------------------------------------------------------------------------|
E|----------------------------------------------------------------------------|

  F#m           Bm7
C'est un beau roman
        E          Amaj7
C'est une belle histoire
Dmaj7      D#o       C#7sus4
C'est une romance d'aujourd'hui
     F#m           Bm7
Il rentrait chez lui
     E               Amaj7
Là-haut vers le brouillard
Dmaj7      D#o          C#7sus4
Elle descendait dans le Midi, Le Midi

  F#m          Bm7       E        Amaj7
Ils se sont trouvés au bord du chemin
  Dmaj7
Sur l'autoroute des vacances

C'était sans doute un jour de chance
   F#m        Bm7      E           Amaj7
Il avait le ciel à portée de la main
      Dmaj7
Un cadeau de la providence
                              Dbm   Bm7
Alors pourquoi penser au lendemain

Wat een mooi moment,
een ademloos gesprek
Met alleen maar vlinders om ons heen
'k weet niet wat je doet, ik weet niet wie je bent
Maar ik voel me even niet alleen, niet alleen

Wat een goed gevoel, die speling van het lot
Ook al weet ik na één dag de regen,
alle sporen weer uit te vegen
Het heeft toch een doel mijn dag kan niet kapot
Door de lach die ik heb gekregen
één moment ben je even deel van mij

F#m Bm7 | E Amaj7 |

“Dmaj7”    “D#o”              “C#7sus4”      “C#7”
e|-9------------9-5-------------------------7----------------|
B|---12-10----------7-------7-9-9/10-7-6------10-9--6h7-6----|
G|---------11---------6---6--------------9-------------------|
D|-----------------------------------------------------------|
A|-----------------------------------------------------------|
E|-----------------------------------------------------------|

“F#m”      “Bm7”          “E”       “Amaj7”
e|-------------------------------------------------7-------|
B|---7-9-9/10-10-10---------9-10-10/12-12-12--10-9---10-9--|
G|-6----------------6-7---7--------------------------------|
D|---------------------------------------------------------|
A|---------------------------------------------------------|
E|---------------------------------------------------------|
“Dmaj7”          “D#o”          “C#7sus4---”“C#7---”
E|---------------------------------------4-----------4-----|
B|---------------------------------------7-----------6-----|
G|---------------------------------------6-----------6-----|
D|---1-3-4-4-4-4-4-4--6-6-7-7-7-7-7-7---6-----------6-----|
A|-4-------------------------------------4-----------4-----|
E|---------------------------------------------------------|

F#m---|          Bm7
Wat een mooi verhaal
        E          Amaj7
C'est une belle histoire
Dmaj7       D#o      C#7sus4
En het licht besloten in je lach
     F#m           Bm7
Il rentrait chez lui
     E               Amaj7
Là-haut dans le brouillard
Dmaj7         D#o     C#7sus4
Het begin van duizend en één nacht, in één nacht

 F#m          Bm7       E        Amaj7
En wat maakt het uit als ik je nooit meer zie
Dmaj7---|
Jij hebt kleur aan mijn dag gegeven
Dmaj7---|
C'était fini le jour de chance
   F#m     Bm7     E          Amaj7
Ils reprirent al ors leur chemin
  Dmaj7
En daar is het ook bij gebleven
                                    Dbm
En iets anders verwachten we ook niet

F#m Bm7 | E Amaj7 | Dmaj7 D#o | C#7sus4 C#7 |
F#m Bm7 | E Amaj7 | Dmaj7 D#o | C#7sus4     |

      F#             Bm7
Een verhaal in een taal
         E             Amaj7
die de ziel direct verstaat
Dmaj7     D#o
waar het hart van opengaat
          Db7sus4
en het bloed weer stromen laat

      F#m            Bm7
Een moment niet alleen
           E      Amaj7
door de speling van het lot
Dmaj7    D#o
nee de dag kan niet kapot
        Db7sus4    Db7
zeg wanneer het nooit meer stopt

F#m---        Bm7---
Wat een mooi moment
E---      Amaj7---
een ademloos gesprek
Dmaj7---         D#o--- C#7sus4
en misschien zie ik je ooit nog terug

  F#m           Bm7
C'est un beau roman
  E                   Amaj7
C'est une romance d'aujourd'hui
Dmaj7               D#o
Il rentrait, retrait chez lui
C#7sus4  C#7    F#---
aujourd'hui

source: tabsrus.nl

Chords

F#m
Bm7
E
Amaj7
Dmaj7
Dbm
F#
Db7sus4
Db7

Language: dutch


remove advertisements


remove advertisements